  0
SECTION
  2
HEADER
  9
$ACADVER
  1
AC1015
  9
$ACADMAINTVER
 70
     6
  9
$DWGCODEPAGE
  3
ANSI_1254
  9
$INSBASE
 10
0.0
 20
0.0
 30
0.0
  9
$EXTMIN
 10
0.0
 20
0.0
 30
0.0
  9
$EXTMAX
 10
279.4
 20
215.9
 30
0.0
  9
$LIMMIN
 10
0.0
 20
0.0
  9
$LIMMAX
 10
279.4
 20
215.9
  9
$ORTHOMODE
 70
     0
  9
$REGENMODE
 70
     1
  9
$FILLMODE
 70
     1
  9
$QTEXTMODE
 70
     0
  9
$MIRRTEXT
 70
     1
  9
$LTSCALE
 40
1.0
  9
$ATTMODE
 70
     1
  9
$TEXTSIZE
 40
3.5
  9
$TRACEWID
 40
1.0
  9
$TEXTSTYLE
  7
Standard
  9
$CLAYER
  8
0
  9
$CELTYPE
  6
ByLayer
  9
$CECOLOR
 62
   256
  9
$CELTSCALE
 40
1.0
  9
$DISPSILH
 70
     0
  9
$DIMSCALE
 40
1.0
  9
$DIMASZ
 40
3.5
  9
$DIMEXO
 40
1.0
  9
$DIMDLI
 40
3.75
  9
$DIMRND
 40
0.0
  9
$DIMDLE
 40
0.0
  9
$DIMEXE
 40
1.0
  9
$DIMTP
 40
0.0
  9
$DIMTM
 40
0.0
  9
$DIMTXT
 40
3.5
  9
$DIMCEN
 40
2.5
  9
$DIMTSZ
 40
0.0
  9
$DIMTOL
 70
     0
  9
$DIMLIM
 70
     0
  9
$DIMTIH
 70
     1
  9
$DIMTOH
 70
     1
  9
$DIMSE1
 70
     0
  9
$DIMSE2
 70
     0
  9
$DIMTAD
 70
     1
  9
$DIMZIN
 70
     0
  9
$DIMBLK
  1

  9
$DIMASO
 70
     1
  9
$DIMSHO
 70
     1
  9
$DIMPOST
  1

  9
$DIMAPOST
  1

  9
$DIMALT
 70
     0
  9
$DIMALTD
 70
     3
  9
$DIMALTF
 40
0.0393700787
  9
$DIMLFAC
 40
1.0
  9
$DIMTOFL
 70
     1
  9
$DIMTVP
 40
0.0
  9
$DIMTIX
 70
     0
  9
$DIMSOXD
 70
     0
  9
$DIMSAH
 70
     0
  9
$DIMBLK1
  1

  9
$DIMBLK2
  1

  9
$DIMSTYLE
  2
ISO-25
  9
$DIMCLRD
 70
     0
  9
$DIMCLRE
 70
     0
  9
$DIMCLRT
 70
     0
  9
$DIMTFAC
 40
1.0
  9
$DIMGAP
 40
1.524
  9
$DIMJUST
 70
     0
  9
$DIMSD1
 70
     0
  9
$DIMSD2
 70
     0
  9
$DIMTOLJ
 70
     0
  9
$DIMTZIN
 70
     0
  9
$DIMALTZ
 70
     0
  9
$DIMALTTZ
 70
     0
  9
$DIMUPT
 70
     0
  9
$DIMDEC
 70
     2
  9
$DIMTDEC
 70
     2
  9
$DIMALTU
 70
     2
  9
$DIMALTTD
 70
     3
  9
$DIMTXSTY
  7
Standard
  9
$DIMAUNIT
 70
     0
  9
$DIMADEC
 70
     2
  9
$DIMALTRND
 40
0.0
  9
$DIMAZIN
 70
     0
  9
$DIMDSEP
 70
    44
  9
$DIMATFIT
 70
     3
  9
$DIMFRAC
 70
     0
  9
$DIMLDRBLK
  1

  9
$DIMLUNIT
 70
     2
  9
$DIMLWD
 70
    -2
  9
$DIMLWE
 70
    -2
  9
$DIMTMOVE
 70
     0
  9
$LUNITS
 70
     2
  9
$LUPREC
 70
     2
  9
$SKETCHINC
 40
1.0
  9
$FILLETRAD
 40
10.0
  9
$AUNITS
 70
     0
  9
$AUPREC
 70
     2
  9
$MENU
  1
.
  9
$ELEVATION
 40
0.0
  9
$PELEVATION
 40
0.0
  9
$THICKNESS
 40
0.0
  9
$LIMCHECK
 70
     0
  9
$CHAMFERA
 40
0.0
  9
$CHAMFERB
 40
0.0
  9
$CHAMFERC
 40
0.0
  9
$CHAMFERD
 40
0.0
  9
$SKPOLY
 70
     0
  9
$TDCREATE
 40
2458985.663581401
  9
$TDUCREATE
 40
2458985.538581401
  9
$TDUPDATE
 40
2458985.663581655
  9
$TDUUPDATE
 40
2458985.538581655
  9
$TDINDWG
 40
0.0000000116
  9
$TDUSRTIMER
 40
0.0000000116
  9
$USRTIMER
 70
     1
  9
$ANGBASE
 50
0.0
  9
$ANGDIR
 70
     0
  9
$PDMODE
 70
     0
  9
$PDSIZE
 40
-1.0
  9
$PLINEWID
 40
0.0
  9
$SPLFRAME
 70
     0
  9
$SPLINETYPE
 70
     6
  9
$SPLINESEGS
 70
     8
  9
$HANDSEED
  5
C2
  9
$SURFTAB1
 70
     6
  9
$SURFTAB2
 70
     6
  9
$SURFTYPE
 70
     6
  9
$SURFU
 70
     6
  9
$SURFV
 70
     6
  9
$UCSBASE
  2

  9
$UCSNAME
  2

  9
$UCSORG
 10
0.0
 20
0.0
 30
0.0
  9
$UCSXDIR
 10
1.0
 20
0.0
 30
0.0
  9
$UCSYDIR
 10
0.0
 20
1.0
 30
0.0
  9
$UCSORTHOREF
  2

  9
$UCSORTHOVIEW
 70
     0
  9
$UCSORGTOP
 10
0.0
 20
0.0
 30
0.0
  9
$UCSORGBOTTOM
 10
0.0
 20
0.0
 30
0.0
  9
$UCSORGLEFT
 10
0.0
 20
0.0
 30
0.0
  9
$UCSORGRIGHT
 10
0.0
 20
0.0
 30
0.0
  9
$UCSORGFRONT
 10
0.0
 20
0.0
 30
0.0
  9
$UCSORGBACK
 10
0.0
 20
0.0
 30
0.0
  9
$PUCSBASE
  2

  9
$PUCSNAME
  2

  9
$PUCSORG
 10
0.0
 20
0.0
 30
0.0
  9
$PUCSXDIR
 10
1.0
 20
0.0
 30
0.0
  9
$PUCSYDIR
 10
0.0
 20
1.0
 30
0.0
  9
$PUCSORTHOREF
  2

  9
$PUCSORTHOVIEW
 70
     0
  9
$PUCSORGTOP
 10
0.0
 20
0.0
 30
0.0
  9
$PUCSORGBOTTOM
 10
0.0
 20
0.0
 30
0.0
  9
$PUCSORGLEFT
 10
0.0
 20
0.0
 30
0.0
  9
$PUCSORGRIGHT
 10
0.0
 20
0.0
 30
0.0
  9
$PUCSORGFRONT
 10
0.0
 20
0.0
 30
0.0
  9
$PUCSORGBACK
 10
0.0
 20
0.0
 30
0.0
  9
$USERI1
 70
     0
  9
$USERI2
 70
     0
  9
$USERI3
 70
     0
  9
$USERI4
 70
     0
  9
$USERI5
 70
     0
  9
$USERR1
 40
0.0
  9
$USERR2
 40
0.0
  9
$USERR3
 40
0.0
  9
$USERR4
 40
0.0
  9
$USERR5
 40
0.0
  9
$WORLDVIEW
 70
     1
  9
$SHADEDGE
 70
     3
  9
$SHADEDIF
 70
    70
  9
$TILEMODE
 70
     1
  9
$MAXACTVP
 70
    64
  9
$PINSBASE
 10
0.0
 20
0.0
 30
0.0
  9
$PLIMCHECK
 70
     0
  9
$PEXTMIN
 10
1.0000000000E+20
 20
1.0000000000E+20
 30
1.0000000000E+20
  9
$PEXTMAX
 10
-1.0000000000E+20
 20
-1.0000000000E+20
 30
-1.0000000000E+20
  9
$PLIMMIN
 10
0.0
 20
0.0
  9
$PLIMMAX
 10
420.0
 20
297.0
  9
$UNITMODE
 70
     0
  9
$VISRETAIN
 70
     1
  9
$PLINEGEN
 70
     0
  9
$PSLTSCALE
 70
     1
  9
$TREEDEPTH
 70
  3020
  9
$CMLSTYLE
  2
Standard
  9
$CMLJUST
 70
     0
  9
$CMLSCALE
 40
20.0
  9
$PROXYGRAPHICS
 70
     1
  9
$MEASUREMENT
 70
     1
  9
$CELWEIGHT
370
    -1
  9
$ENDCAPS
280
     0
  9
$JOINSTYLE
280
     0
  9
$LWDISPLAY
290
     1
  9
$INSUNITS
 70
     4
  9
$HYPERLINKBASE
  1

  9
$STYLESHEET
  1

  9
$XEDIT
290
     1
  9
$CEPSNTYPE
380
     0
  9
$PSTYLEMODE
290
     1
  9
$FINGERPRINTGUID
  2
{1403a0c4-64b5-4020-bec5-b114a59d3ecb}
  9
$VERSIONGUID
  2
{FAEB1C32-E019-11D5-929B-00C0DF256EC4}
  9
$EXTNAMES
290
     1
  9
$PSVPSCALE
 40
0.0
  9
$OLESTARTUP
290
     0
  0
ENDSEC
  0
SECTION
  2
CLASSES
  0
CLASS
  1
ACDBDICTIONARYWDFLT
  2
AcDbDictionaryWithDefault
  3
ObjectDBX Classes
 90
        0
280
     0
281
     0
  0
CLASS
  1
VISUALSTYLE
  2
AcDbVisualStyle
  3
ObjectDBX Classes
 90
     4095
280
     0
281
     0
  0
CLASS
  1
MATERIAL
  2
AcDbMaterial
  3
ObjectDBX Classes
 90
     1153
280
     0
281
     0
  0
CLASS
  1
SCALE
  2
AcDbScale
  3
ObjectDBX Classes
 90
     1153
280
     0
281
     0
  0
CLASS
  1
TABLESTYLE
  2
AcDbTableStyle
  3
ObjectDBX Classes
 90
     4095
280
     0
281
     0
  0
CLASS
  1
MLEADERSTYLE
  2
AcDbMLeaderStyle
  3
ACDB_MLEADERSTYLE_CLASS
 90
     4095
280
     0
281
     0
  0
CLASS
  1
SUN
  2
AcDbSun
  3
SCENEOE
 90
     1153
280
     0
281
     0
  0
CLASS
  1
ACDBPLACEHOLDER
  2
AcDbPlaceHolder
  3
ObjectDBX Classes
 90
        0
280
     0
281
     0
  0
CLASS
  1
LAYOUT
  2
AcDbLayout
  3
ObjectDBX Classes
 90
        0
280
     0
281
     0
  0
ENDSEC
  0
SECTION
  2
TABLES
  0
TABLE
  2
VPORT
  5
8
330
0
100
AcDbSymbolTable
 70
     1
  0
VPORT
  5
29
330
8
100
AcDbSymbolTableRecord
100
AcDbViewportTableRecord
  2
*Active
 70
     0
 10
0.0
 20
0.0
 11
1.0
 21
1.0
 12
139.7
 22
107.95
 13
0.0
 23
0.0
 14
10.0
 24
10.0
 15
10.0
 25
10.0
 16
0.0
 26
0.0
 36
1.0
 17
0.0
 27
0.0
 37
0.0
 40
215.9
 41
1.2941176471
 42
50.0
 43
0.0
 44
0.0
 50
0.0
 51
0.0
 71
     0
 72
  2000
 73
     1
 74
     3
 75
     0
 76
     0
 77
     0
 78
     0
281
     0
 65
     1
110
0.0
120
0.0
130
0.0
111
1.0
121
0.0
131
0.0
112
0.0
122
1.0
132
0.0
 79
     0
146
0.0
  0
ENDTAB
  0
TABLE
  2
LTYPE
  5
5
330
0
100
AcDbSymbolTable
 70
     6
  0
LTYPE
  5
14
330
5
100
AcDbSymbolTableRecord
100
AcDbLinetypeTableRecord
  2
ByBlock
 70
     0
  3

 72
    65
 73
     0
 40
0.0
  0
LTYPE
  5
15
330
5
100
AcDbSymbolTableRecord
100
AcDbLinetypeTableRecord
  2
ByLayer
 70
     0
  3

 72
    65
 73
     0
 40
0.0
  0
LTYPE
  5
16
330
5
100
AcDbSymbolTableRecord
100
AcDbLinetypeTableRecord
  2
Continuous
 70
     0
  3
Solid line
 72
    65
 73
     0
 40
0.0
  0
LTYPE
  5
6E
330
5
100
AcDbSymbolTableRecord
100
AcDbLinetypeTableRecord
  2
HIDDEN
 70
     0
  3
Hidden __ __ __ __ __ __ __ __ __ __ __ __ __ __
 72
    65
 73
     2
 40
1.905
 49
1.27
 74
     0
 49
-0.635
 74
     0
  0
LTYPE
  5
6F
330
5
100
AcDbSymbolTableRecord
100
AcDbLinetypeTableRecord
  2
PHANTOM
 70
     0
  3
Phantom ______  __  __  ______  __  __  ______
 72
    65
 73
     6
 40
12.7
 49
6.35
 74
     0
 49
-1.27
 74
     0
 49
1.27
 74
     0
 49
-1.27
 74
     0
 49
1.27
 74
     0
 49
-1.27
 74
     0
  0
LTYPE
  5
70
330
5
100
AcDbSymbolTableRecord
100
AcDbLinetypeTableRecord
  2
CENTER
 70
     0
  3
Center ____ _ ____ _ ____ _ ____ _ ____ _ ____
 72
    65
 73
     4
 40
10.16
 49
6.35
 74
     0
 49
-1.27
 74
     0
 49
1.27
 74
     0
 49
-1.27
 74
     0
  0
LTYPE
  5
71
330
5
100
AcDbSymbolTableRecord
100
AcDbLinetypeTableRecord
  2
CENTERX2
 70
     0
  3
Center (2x) ________  __  ________  __  _____
 72
    65
 73
     4
 40
20.32
 49
12.7
 74
     0
 49
-2.54
 74
     0
 49
2.54
 74
     0
 49
-2.54
 74
     0
  0
LTYPE
  5
72
330
5
100
AcDbSymbolTableRecord
100
AcDbLinetypeTableRecord
  2
DOT2
 70
     0
  3
Dot (.5x) ........................................
 72
    65
 73
     2
 40
0.635
 49
0.0
 74
     0
 49
-0.635
 74
     0
  0
ENDTAB
  0
TABLE
  2
LAYER
  5
2
330
0
100
AcDbSymbolTable
 70
    17
  0
LAYER
  5
10
330
2
100
AcDbSymbolTableRecord
100
AcDbLayerTableRecord
  2
0
 70
     0
 62
     7
  6
Continuous
370
    -3
390
F
  0
LAYER
  5
73
330
2
100
AcDbSymbolTableRecord
100
AcDbLayerTableRecord
  2
FORMAT
 70
     0
 62
     7
  6
Continuous
370
    -3
390
F
  0
LAYER
  5
74
330
2
100
AcDbSymbolTableRecord
100
AcDbLayerTableRecord
  2
YARDIMCI_GEOMETRI
 70
     0
 62
    -6
  6
Continuous
290
     0
370
    -3
390
F
  0
LAYER
  5
75
330
2
100
AcDbSymbolTableRecord
100
AcDbLayerTableRecord
  2
SAYFA_CERCEVESI
 70
     0
 62
     7
  6
Continuous
370
    25
390
F
  0
LAYER
  5
76
330
2
100
AcDbSymbolTableRecord
100
AcDbLayerTableRecord
  2
ANTET
 70
     0
 62
     7
  6
Continuous
370
    -3
390
F
  0
LAYER
  5
77
330
2
100
AcDbSymbolTableRecord
100
AcDbLayerTableRecord
  2
OLCU
 70
     0
 62
   150
  6
Continuous
370
    -3
390
F
  0
LAYER
  5
78
330
2
100
AcDbSymbolTableRecord
100
AcDbLayerTableRecord
  2
METIN
 70
     0
 62
    96
  6
Continuous
370
    -3
390
F
  0
LAYER
  5
79
330
2
100
AcDbSymbolTableRecord
100
AcDbLayerTableRecord
  2
BALON
 70
     0
 62
     5
  6
Continuous
370
    -3
390
F
  0
LAYER
  5
7A
330
2
100
AcDbSymbolTableRecord
100
AcDbLayerTableRecord
  2
VURGU
 70
     0
 62
     7
  6
Continuous
370
    -3
390
F
  0
LAYER
  5
7B
330
2
100
AcDbSymbolTableRecord
100
AcDbLayerTableRecord
  2
SILIK
 70
     0
 62
     7
  6
Continuous
370
    -3
390
F
  0
LAYER
  5
7C
330
2
100
AcDbSymbolTableRecord
100
AcDbLayerTableRecord
  2
MODEL
 70
     0
 62
     7
  6
Continuous
370
    -3
390
F
  0
LAYER
  5
7D
330
2
100
AcDbSymbolTableRecord
100
AcDbLayerTableRecord
  2
DETAYLANDıRMA
 70
     0
 62
   190
  6
Continuous
370
    -3
390
F
  0
LAYER
  5
7E
330
2
100
AcDbSymbolTableRecord
100
AcDbLayerTableRecord
  2
TOLERANS
 70
     0
 62
   230
  6
Continuous
370
    -3
390
F
  0
LAYER
  5
7F
330
2
100
AcDbSymbolTableRecord
100
AcDbLayerTableRecord
  2
MERKEZ_CIZGILERI
 70
     0
 62
    30
  6
Continuous
370
    -3
390
F
  0
LAYER
  5
80
330
2
100
AcDbSymbolTableRecord
100
AcDbLayerTableRecord
  2
KESIT-DETAY_CIZGILERI
 70
     0
 62
     7
  6
Continuous
370
    -3
390
F
  0
LAYER
  5
81
330
2
100
AcDbSymbolTableRecord
100
AcDbLayerTableRecord
  2
\U+041E\U+0421\U+0415\U+0412\U+042B\U+0415
 70
     0
 62
     7
  6
Continuous
370
    -3
390
F
  0
LAYER
  5
82
330
2
100
AcDbSymbolTableRecord
100
AcDbLayerTableRecord
  2
\U+0412\U+041E\U+0414\U+042F\U+041D\U+042B\U+0415_\U+0417\U+041D\U+0410\U+041A\U+0418
 70
     0
 62
    11
  6
Continuous
370
    -3
390
F
  0
ENDTAB
  0
TABLE
  2
STYLE
  5
3
330
0
100
AcDbSymbolTable
 70
     1
  0
STYLE
  5
11
330
3
100
AcDbSymbolTableRecord
100
AcDbTextStyleTableRecord
  2
Standard
 70
     0
 40
0.0
 41
1.0
 50
0.0
 71
     0
 42
3.5
  3
txt
  4

  0
ENDTAB
  0
TABLE
  2
VIEW
  5
6
330
0
100
AcDbSymbolTable
 70
     0
  0
ENDTAB
  0
TABLE
  2
UCS
  5
7
330
0
100
AcDbSymbolTable
 70
     0
  0
ENDTAB
  0
TABLE
  2
APPID
  5
9
330
0
100
AcDbSymbolTable
 70
     1
  0
APPID
  5
12
330
9
100
AcDbSymbolTableRecord
100
AcDbRegAppTableRecord
  2
ACAD
 70
     0
  0
ENDTAB
  0
TABLE
  2
DIMSTYLE
  5
A
330
0
100
AcDbSymbolTable
 70
     1
100
AcDbDimStyleTable
  0
DIMSTYLE
105
27
330
A
100
AcDbSymbolTableRecord
100
AcDbDimStyleTableRecord
  2
ISO-25
 70
     0
 41
2.5
 42
0.625
 43
3.75
 44
1.25
 73
     0
 74
     0
 77
     1
 78
     8
140
2.5
141
2.5
143
0.0393700787
147
0.625
171
     3
172
     1
178
     0
271
     2
272
     2
274
     3
278
    44
283
     0
284
     8
340
11
  0
ENDTAB
  0
TABLE
  2
BLOCK_RECORD
  5
1
330
0
100
AcDbSymbolTable
 70
     1
  0
BLOCK_RECORD
  5
1F
330
1
100
AcDbSymbolTableRecord
100
AcDbBlockTableRecord
  2
*Model_Space
340
22
  0
BLOCK_RECORD
  5
1B
330
1
100
AcDbSymbolTableRecord
100
AcDbBlockTableRecord
  2
*Paper_Space
340
1E
  0
BLOCK_RECORD
  5
23
330
1
100
AcDbSymbolTableRecord
100
AcDbBlockTableRecord
  2
*Paper_Space0
340
26
  0
ENDTAB
  0
ENDSEC
  0
SECTION
  2
BLOCKS
  0
BLOCK
  5
20
330
1F
100
AcDbEntity
  8
0
100
AcDbBlockBegin
  2
*Model_Space
 70
     0
 10
0.0
 20
0.0
 30
0.0
  3
*Model_Space
  1

  0
ENDBLK
  5
21
330
1F
100
AcDbEntity
  8
0
100
AcDbBlockEnd
  0
BLOCK
  5
1C
330
1B
100
AcDbEntity
 67
     1
  8
0
100
AcDbBlockBegin
  2
*Paper_Space
 70
     0
 10
0.0
 20
0.0
 30
0.0
  3
*Paper_Space
  1

  0
ENDBLK
  5
1D
330
1B
100
AcDbEntity
 67
     1
  8
0
100
AcDbBlockEnd
  0
BLOCK
  5
24
330
23
100
AcDbEntity
  8
0
100
AcDbBlockBegin
  2
*Paper_Space0
 70
     0
 10
0.0
 20
0.0
 30
0.0
  3
*Paper_Space0
  1

  0
ENDBLK
  5
25
330
23
100
AcDbEntity
  8
0
100
AcDbBlockEnd
  0
ENDSEC
  0
SECTION
  2
ENTITIES
  0
CIRCLE
  5
83
330
1F
100
AcDbEntity
  8
0
  6
Continuous
 62
     7
370
    25
100
AcDbCircle
 10
135.9944086538
 20
103.067000798
 30
0.0
 40
225.0
  0
CIRCLE
  5
84
330
1F
100
AcDbEntity
  8
0
  6
Continuous
 62
     7
370
    25
100
AcDbCircle
 10
135.9944086538
 20
103.067000798
 30
0.0
 40
198.3
  0
CIRCLE
  5
85
330
1F
100
AcDbEntity
  8
0
  6
Continuous
 62
     7
370
    25
100
AcDbCircle
 10
135.9944086538
 20
103.067000798
 30
0.0
 40
232.5
  0
CIRCLE
  5
86
330
1F
100
AcDbEntity
  8
0
  6
Continuous
 62
     7
370
    25
100
AcDbCircle
 10
135.9944086538
 20
103.067000798
 30
0.0
 40
272.5
  0
LINE
  5
87
330
1F
100
AcDbEntity
  8
0
  6
Continuous
 62
     7
370
    25
100
AcDbLine
 10
408.4944086538
 20
495.3453478315
 30
0.0
 11
408.4944086538
 21
540.3453478315
 31
0.0
  0
LINE
  5
88
330
1F
100
AcDbEntity
  8
0
  6
Continuous
 62
     7
370
    25
100
AcDbLine
 10
-136.5055913462
 20
540.3453478315
 30
0.0
 11
-136.5055913462
 21
495.3453478315
 31
0.0
  0
LINE
  5
89
330
1F
100
AcDbEntity
  8
0
  6
Continuous
 62
     7
370
    25
100
AcDbLine
 10
368.4944086538
 20
540.3453478315
 30
0.0
 11
360.9944086538
 21
589.3453478315
 31
0.0
  0
LINE
  5
8A
330
1F
100
AcDbEntity
  8
0
  6
Continuous
 62
     7
370
    25
100
AcDbLine
 10
-89.0055913462
 20
589.3453478315
 30
0.0
 11
-96.5055913462
 21
540.3453478315
 31
0.0
  0
LINE
  5
8B
330
1F
100
AcDbEntity
  8
0
  6
Continuous
 62
     7
370
    25
100
AcDbLine
 10
360.9944086538
 20
589.3453478315
 30
0.0
 11
360.9944086538
 21
629.3453478315
 31
0.0
  0
LINE
  5
8C
330
1F
100
AcDbEntity
  8
0
  6
Continuous
 62
     7
370
    25
100
AcDbLine
 10
-89.0055913462
 20
629.3453478315
 30
0.0
 11
-89.0055913462
 21
589.3453478315
 31
0.0
  0
LINE
  5
8D
330
1F
100
AcDbEntity
  8
0
  6
Continuous
 62
     7
370
    25
100
AcDbLine
 10
408.4944086538
 20
495.3453478315
 30
0.0
 11
-136.5055913462
 21
495.3453478315
 31
0.0
  0
LINE
  5
8E
330
1F
100
AcDbEntity
  8
0
  6
Continuous
 62
     7
370
    25
100
AcDbLine
 10
408.4944086538
 20
540.3453478315
 30
0.0
 11
-136.5055913462
 21
540.3453478315
 31
0.0
  0
LINE
  5
8F
330
1F
100
AcDbEntity
  8
0
  6
Continuous
 62
     7
370
    25
100
AcDbLine
 10
360.9944086538
 20
589.3453478315
 30
0.0
 11
-89.0055913462
 21
589.3453478315
 31
0.0
  0
LINE
  5
90
330
1F
100
AcDbEntity
  8
0
  6
Continuous
 62
     7
370
    25
100
AcDbLine
 10
360.9944086538
 20
629.3453478315
 30
0.0
 11
-89.0055913462
 21
629.3453478315
 31
0.0
  0
LINE
  5
91
330
1F
100
AcDbEntity
  8
0
  6
Continuous
 62
     7
370
    25
100
AcDbLine
 10
-399.2715306713
 20
375.567000798
 30
0.0
 11
-444.2715306713
 21
375.567000798
 31
0.0
  0
LINE
  5
92
330
1F
100
AcDbEntity
  8
0
  6
Continuous
 62
     7
370
    25
100
AcDbLine
 10
-444.2715306713
 20
-169.432999202
 30
0.0
 11
-399.2715306713
 21
-169.432999202
 31
0.0
  0
LINE
  5
93
330
1F
100
AcDbEntity
  8
0
  6
Continuous
 62
     7
370
    25
100
AcDbLine
 10
-444.2715306713
 20
335.567000798
 30
0.0
 11
-493.2715306713
 21
328.067000798
 31
0.0
  0
LINE
  5
94
330
1F
100
AcDbEntity
  8
0
  6
Continuous
 62
     7
370
    25
100
AcDbLine
 10
-493.2715306713
 20
-121.932999202
 30
0.0
 11
-444.2715306713
 21
-129.432999202
 31
0.0
  0
LINE
  5
95
330
1F
100
AcDbEntity
  8
0
  6
Continuous
 62
     7
370
    25
100
AcDbLine
 10
-493.2715306713
 20
328.067000798
 30
0.0
 11
-533.2715306713
 21
328.067000798
 31
0.0
  0
LINE
  5
96
330
1F
100
AcDbEntity
  8
0
  6
Continuous
 62
     7
370
    25
100
AcDbLine
 10
-533.2715306713
 20
-121.932999202
 30
0.0
 11
-493.2715306713
 21
-121.932999202
 31
0.0
  0
LINE
  5
97
330
1F
100
AcDbEntity
  8
0
  6
Continuous
 62
     7
370
    25
100
AcDbLine
 10
-399.2715306713
 20
375.567000798
 30
0.0
 11
-399.2715306713
 21
-169.432999202
 31
0.0
  0
LINE
  5
98
330
1F
100
AcDbEntity
  8
0
  6
Continuous
 62
     7
370
    25
100
AcDbLine
 10
-444.2715306713
 20
375.567000798
 30
0.0
 11
-444.2715306713
 21
-169.432999202
 31
0.0
  0
LINE
  5
99
330
1F
100
AcDbEntity
  8
0
  6
Continuous
 62
     7
370
    25
100
AcDbLine
 10
-493.2715306713
 20
328.067000798
 30
0.0
 11
-493.2715306713
 21
-121.932999202
 31
0.0
  0
LINE
  5
9A
330
1F
100
AcDbEntity
  8
0
  6
Continuous
 62
     7
370
    25
100
AcDbLine
 10
-533.2715306713
 20
328.067000798
 30
0.0
 11
-533.2715306713
 21
-121.932999202
 31
0.0
  0
LINE
  5
9B
330
1F
100
AcDbEntity
  8
0
  6
Continuous
 62
     7
370
    25
100
AcDbLine
 10
-136.5055913462
 20
-422.2748993417
 30
0.0
 11
-136.5055913462
 21
-467.2748993417
 31
0.0
  0
LINE
  5
9C
330
1F
100
AcDbEntity
  8
0
  6
Continuous
 62
     7
370
    25
100
AcDbLine
 10
408.4944086538
 20
-467.2748993417
 30
0.0
 11
408.4944086538
 21
-422.2748993417
 31
0.0
  0
LINE
  5
9D
330
1F
100
AcDbEntity
  8
0
  6
Continuous
 62
     7
370
    25
100
AcDbLine
 10
-96.5055913462
 20
-467.2748993417
 30
0.0
 11
-89.0055913462
 21
-516.2748993417
 31
0.0
  0
LINE
  5
9E
330
1F
100
AcDbEntity
  8
0
  6
Continuous
 62
     7
370
    25
100
AcDbLine
 10
360.9944086538
 20
-516.2748993417
 30
0.0
 11
368.4944086538
 21
-467.2748993417
 31
0.0
  0
LINE
  5
9F
330
1F
100
AcDbEntity
  8
0
  6
Continuous
 62
     7
370
    25
100
AcDbLine
 10
-89.0055913462
 20
-516.2748993417
 30
0.0
 11
-89.0055913462
 21
-556.2748993417
 31
0.0
  0
LINE
  5
A0
330
1F
100
AcDbEntity
  8
0
  6
Continuous
 62
     7
370
    25
100
AcDbLine
 10
360.9944086538
 20
-556.2748993417
 30
0.0
 11
360.9944086538
 21
-516.2748993417
 31
0.0
  0
LINE
  5
A1
330
1F
100
AcDbEntity
  8
0
  6
Continuous
 62
     7
370
    25
100
AcDbLine
 10
-136.5055913462
 20
-422.2748993417
 30
0.0
 11
408.4944086538
 21
-422.2748993417
 31
0.0
  0
LINE
  5
A2
330
1F
100
AcDbEntity
  8
0
  6
Continuous
 62
     7
370
    25
100
AcDbLine
 10
-136.5055913462
 20
-467.2748993417
 30
0.0
 11
408.4944086538
 21
-467.2748993417
 31
0.0
  0
LINE
  5
A3
330
1F
100
AcDbEntity
  8
0
  6
Continuous
 62
     7
370
    25
100
AcDbLine
 10
-89.0055913462
 20
-516.2748993417
 30
0.0
 11
360.9944086538
 21
-516.2748993417
 31
0.0
  0
LINE
  5
A4
330
1F
100
AcDbEntity
  8
0
  6
Continuous
 62
     7
370
    25
100
AcDbLine
 10
-89.0055913462
 20
-556.2748993417
 30
0.0
 11
360.9944086538
 21
-556.2748993417
 31
0.0
  0
LINE
  5
A5
330
1F
100
AcDbEntity
  8
0
  6
Continuous
 62
     7
370
    25
100
AcDbLine
 10
658.6978541809
 20
-169.432999202
 30
0.0
 11
703.6978541809
 21
-169.432999202
 31
0.0
  0
LINE
  5
A6
330
1F
100
AcDbEntity
  8
0
  6
Continuous
 62
     7
370
    25
100
AcDbLine
 10
703.6978541809
 20
375.567000798
 30
0.0
 11
658.6978541809
 21
375.567000798
 31
0.0
  0
LINE
  5
A7
330
1F
100
AcDbEntity
  8
0
  6
Continuous
 62
     7
370
    25
100
AcDbLine
 10
703.6978541809
 20
-129.432999202
 30
0.0
 11
752.6978541809
 21
-121.932999202
 31
0.0
  0
LINE
  5
A8
330
1F
100
AcDbEntity
  8
0
  6
Continuous
 62
     7
370
    25
100
AcDbLine
 10
752.6978541809
 20
328.067000798
 30
0.0
 11
703.6978541809
 21
335.567000798
 31
0.0
  0
LINE
  5
A9
330
1F
100
AcDbEntity
  8
0
  6
Continuous
 62
     7
370
    25
100
AcDbLine
 10
752.6978541809
 20
-121.932999202
 30
0.0
 11
792.6978541809
 21
-121.932999202
 31
0.0
  0
LINE
  5
AA
330
1F
100
AcDbEntity
  8
0
  6
Continuous
 62
     7
370
    25
100
AcDbLine
 10
792.6978541809
 20
328.067000798
 30
0.0
 11
752.6978541809
 21
328.067000798
 31
0.0
  0
LINE
  5
AB
330
1F
100
AcDbEntity
  8
0
  6
Continuous
 62
     7
370
    25
100
AcDbLine
 10
658.6978541809
 20
103.067000798
 30
0.0
 11
658.6978541809
 21
375.567000798
 31
0.0
  0
LINE
  5
AC
330
1F
100
AcDbEntity
  8
0
  6
Continuous
 62
     7
370
    25
100
AcDbLine
 10
658.6978541809
 20
-169.432999202
 30
0.0
 11
658.6978541809
 21
103.067000798
 31
0.0
  0
LINE
  5
AD
330
1F
100
AcDbEntity
  8
0
  6
Continuous
 62
     7
370
    25
100
AcDbLine
 10
703.6978541809
 20
103.067000798
 30
0.0
 11
703.6978541809
 21
375.567000798
 31
0.0
  0
LINE
  5
AE
330
1F
100
AcDbEntity
  8
0
  6
Continuous
 62
     7
370
    25
100
AcDbLine
 10
703.6978541809
 20
-169.432999202
 30
0.0
 11
703.6978541809
 21
103.067000798
 31
0.0
  0
LINE
  5
AF
330
1F
100
AcDbEntity
  8
0
  6
Continuous
 62
     7
370
    25
100
AcDbLine
 10
752.6978541809
 20
103.067000798
 30
0.0
 11
752.6978541809
 21
328.067000798
 31
0.0
  0
LINE
  5
B0
330
1F
100
AcDbEntity
  8
0
  6
Continuous
 62
     7
370
    25
100
AcDbLine
 10
752.6978541809
 20
-121.932999202
 30
0.0
 11
752.6978541809
 21
103.067000798
 31
0.0
  0
LINE
  5
B1
330
1F
100
AcDbEntity
  8
0
  6
Continuous
 62
     7
370
    25
100
AcDbLine
 10
792.6978541809
 20
103.067000798
 30
0.0
 11
792.6978541809
 21
328.067000798
 31
0.0
  0
LINE
  5
B2
330
1F
100
AcDbEntity
  8
0
  6
Continuous
 62
     7
370
    25
100
AcDbLine
 10
792.6978541809
 20
-121.932999202
 30
0.0
 11
792.6978541809
 21
103.067000798
 31
0.0
  0
LINE
  5
B3
330
1F
100
AcDbEntity
  8
0
  6
Continuous
 62
     7
370
    25
100
AcDbLine
 10
899.3742782194
 20
-314.6512574163
 30
0.0
 11
867.554473066
 21
-296.2820749003
 31
0.0
  0
LINE
  5
B4
330
1F
100
AcDbEntity
  8
0
  6
Continuous
 62
     7
370
    25
100
AcDbLine
 10
595.0766184227
 20
-768.2787048978
 30
0.0
 11
626.896423576
 21
-786.6478874138
 31
0.0
  0
LINE
  5
B5
330
1F
100
AcDbEntity
  8
0
  6
Continuous
 62
     7
370
    25
100
AcDbLine
 10
809.1581708877
 20
-317.4173971237
 30
0.0
 11
780.8738996403
 21
-301.0892348873
 31
0.0
  0
LINE
  5
B6
330
1F
100
AcDbEntity
  8
0
  6
Continuous
 62
     7
370
    25
100
AcDbLine
 10
555.8921847972
 20
-690.8112229586
 30
0.0
 11
584.1764560446
 21
-707.139385195
 31
0.0
  0
LINE
  5
B7
330
1F
100
AcDbEntity
  8
0
  6
Continuous
 62
     7
370
    25
100
AcDbLine
 10
834.2893126798
 20
-324.8425220351
 30
0.0
 11
803.0512690286
 21
-313.8919577215
 31
0.0
  0
LINE
  5
B8
330
1F
100
AcDbEntity
  8
0
  6
Continuous
 62
     7
370
    25
100
AcDbLine
 10
578.0695541855
 20
-703.6139457928
 30
0.0
 11
603.1740675903
 21
-725.1892473352
 31
0.0
  0
LWPOLYLINE
  5
B9
330
1F
100
AcDbEntity
  8
0
  6
Continuous
 62
     7
370
    25
100
AcDbPolyline
 90
       90
 70
   128
 43
0.0
 10
899.3742782194
 20
-314.6512574163
 10
901.2074117759
 20
-315.7383671518
 10
905.9429935459
 20
-318.827908435
 10
910.4945030174
 20
-322.2162568811
 10
914.85607351
 20
-325.8990450691
 10
919.0220831655
 20
-329.8715260591
 10
922.9871621945
 20
-334.128579511
 10
926.7461997976
 20
-338.6647182842
 10
930.294350753
 20
-343.4740955103
 10
933.627041662
 20
-348.5505121296
 10
936.7399768436
 20
-353.8874248809
 10
939.6291438715
 20
-359.4779547362
 10
942.2908187461
 20
-365.3148957669
 10
944.7215706943
 20
-371.3907244318
 10
946.9182665918
 20
-377.6976092753
 10
948.8780750014
 20
-384.2274210209
 10
950.5984698228
 20
-390.9717430502
 10
952.0772335485
 20
-397.9218822509
 10
953.3124601218
 20
-405.0688802222
 10
954.3025573941
 20
-412.4035248217
 10
955.0462491769
 20
-419.9163620394
 10
955.5425768867
 20
-427.5977081833
 10
955.7909007805
 20
-435.4376623615
 10
955.7909007805
 20
-443.4261192438
 10
955.5425768867
 20
-451.552782087
 10
955.0462491769
 20
-459.8071760069
 10
954.3025573941
 20
-468.1786614802
 10
953.3124601218
 20
-476.6564480579
 10
952.0772335485
 20
-485.2296082741
 10
950.5984698228
 20
-493.8870917305
 10
948.8780750014
 20
-502.6177393404
 10
946.9182665918
 20
-511.4102977119
 10
944.7215706943
 20
-520.2534336529
 10
942.2908187461
 20
-529.1357487796
 10
939.6291438715
 20
-538.0457942075
 10
936.7399768436
 20
-546.9720853096
 10
933.627041662
 20
-555.9031165187
 10
930.294350753
 20
-564.8273761578
 10
926.7461997976
 20
-573.7333612783
 10
922.9871621945
 20
-582.6095924866
 10
919.0220831655
 20
-591.4446287402
 10
914.85607351
 20
-600.2270820953
 10
910.4945030174
 20
-608.9456323848
 10
905.9429935459
 20
-617.5890418096
 10
901.2074117759
 20
-626.1461694238
 10
896.2938616483
 20
-634.6059854943
 10
891.208676497
 20
-642.9575857184
 10
885.9584108852
 20
-651.1902052783
 10
880.549832157
 20
-659.2932327166
 10
874.9899117145
 20
-667.2562236143
 10
869.2858160324
 20
-675.0689140524
 10
863.4448974202
 20
-682.7212338426
 10
857.4746845459
 20
-690.2033195064
 10
851.3828727314
 20
-697.5055269892
 10
845.1773140343
 20
-704.6184440909
 10
838.8660071262
 20
-711.5329025977
 10
832.4570869832
 20
-718.2399900996
 10
825.9588144004
 20
-724.7310614778
 10
819.3795653439
 20
-730.9977500483
 10
812.7278201545
 20
-737.031978346
 10
806.0121526173
 20
-742.8259685357
 10
799.2412189103
 20
-748.3722524383
 10
792.4237464466
 20
-753.663681156
 10
785.5685226261
 20
-758.6934342873
 10
778.684383508
 20
-763.4550287184
 10
771.7802024221
 20
-767.9423269792
 10
764.8648785314
 20
-772.1495451543
 10
757.9473253614
 20
-776.0712603387
 10
751.0364593109
 20
-779.7024176267
 10
744.1411881596
 20
-783.0383366283
 10
737.2703995859
 20
-786.0747175018
 10
730.4329497113
 20
-788.8076464958
 10
723.6376516855
 20
-791.2336009939
 10
716.8932643263
 20
-793.3494540556
 10
710.20848083
 20
-795.1524784463
 10
703.5919175666
 20
-796.6403501529
 10
697.052102973
 20
-797.8111513791
 10
690.5974665612
 20
-798.6633730174
 10
684.2363280522
 20
-799.1959165945
 10
677.9768866528
 20
-799.4080956868
 10
671.827210487
 20
-799.2996368057
 10
665.7952261965
 20
-798.8706797493
 10
659.8887087238
 20
-798.1217774231
 10
654.1152712907
 20
-797.0538951268
 10
648.4823555851
 20
-795.6684093102
 10
642.9972221688
 20
-793.9671057989
 10
637.6669411196
 20
-791.9521774928
 10
632.4983829175
 20
-789.6262215391
 10
627.4982095898
 20
-786.9922359851
 10
626.896423576
 20
-786.6478874138
  0
LWPOLYLINE
  5
BA
330
1F
100
AcDbEntity
  8
0
  6
Continuous
 62
     7
370
    25
100
AcDbPolyline
 90
      124
 70
   128
 43
0.0
 10
764.3251121073
 20
-294.0063743167
 10
767.4214137569
 20
-292.8707620001
 10
774.192347464
 20
-290.5994922458
 10
780.9080150011
 20
-288.6397377403
 10
787.5597601905
 20
-286.9940245144
 10
794.139009247
 20
-285.6644738148
 10
800.6372818298
 20
-284.6527993693
 10
807.0462019728
 20
-283.9603051786
 10
813.3575088809
 20
-283.5878838349
 10
819.5630675781
 20
-283.5360153716
 10
825.6548793925
 20
-283.8047666448
 10
831.6250922668
 20
-284.3937912469
 10
837.466010879
 20
-285.3023299528
 10
843.1701065611
 20
-286.5292116993
 10
848.7300270036
 20
-288.0728550937
 10
854.1386057318
 20
-289.9312704527
 10
859.3888713437
 20
-292.1020623668
 10
864.4740564949
 20
-294.5824327879
 10
869.3876066225
 20
-297.3691846358
 10
874.1231883925
 20
-300.458725919
 10
878.674697864
 20
-303.8470743651
 10
883.0362683566
 20
-307.5298625531
 10
887.2022780121
 20
-311.5023435431
 10
891.1673570411
 20
-315.759396995
 10
894.9263946442
 20
-320.2955357682
 10
898.4745455996
 20
-325.1049129943
 10
901.8072365086
 20
-330.1813296136
 10
904.9201716902
 20
-335.5182423649
 10
907.8093387182
 20
-341.1087722202
 10
910.4710135927
 20
-346.9457132508
 10
912.9017655409
 20
-353.0215419158
 10
915.0984614384
 20
-359.3284267593
 10
917.058269848
 20
-365.8582385049
 10
918.7786646695
 20
-372.6025605342
 10
920.2574283951
 20
-379.5526997348
 10
921.4926549684
 20
-386.6996977062
 10
922.4827522407
 20
-394.0343423057
 10
923.2264440236
 20
-401.5471795234
 10
923.7227717333
 20
-409.2285256673
 10
923.9710956271
 20
-417.0684798455
 10
923.9710956271
 20
-425.0569367278
 10
923.7227717333
 20
-433.1835995709
 10
923.2264440236
 20
-441.4379934909
 10
922.4827522407
 20
-449.8094789642
 10
921.4926549684
 20
-458.2872655419
 10
920.2574283951
 20
-466.860425758
 10
918.7786646695
 20
-475.5179092145
 10
917.058269848
 20
-484.2485568244
 10
915.0984614384
 20
-493.0411151959
 10
912.9017655409
 20
-501.8842511369
 10
910.4710135927
 20
-510.7665662635
 10
907.8093387182
 20
-519.6766116915
 10
904.9201716902
 20
-528.6029027936
 10
901.8072365086
 20
-537.5339340027
 10
898.4745455996
 20
-546.4581936418
 10
894.9263946442
 20
-555.3641787623
 10
891.1673570411
 20
-564.2404099706
 10
887.2022780121
 20
-573.0754462242
 10
883.0362683566
 20
-581.8578995793
 10
878.674697864
 20
-590.5764498688
 10
874.1231883925
 20
-599.2198592936
 10
869.3876066225
 20
-607.7769869077
 10
864.4740564949
 20
-616.2368029783
 10
859.3888713436
 20
-624.5884032024
 10
854.1386057318
 20
-632.8210227623
 10
848.7300270036
 20
-640.9240502006
 10
843.1701065611
 20
-648.8870410982
 10
837.466010879
 20
-656.6997315364
 10
831.6250922668
 20
-664.3520513266
 10
825.6548793925
 20
-671.8341369904
 10
819.563067578
 20
-679.1363444732
 10
813.3575088809
 20
-686.2492615749
 10
807.0462019728
 20
-693.1637200817
 10
800.6372818298
 20
-699.8708075835
 10
794.139009247
 20
-706.3618789618
 10
787.5597601905
 20
-712.6285675323
 10
780.9080150011
 20
-718.6627958299
 10
774.192347464
 20
-724.4567860197
 10
767.4214137569
 20
-730.0030699223
 10
760.6039412932
 20
-735.29449864
 10
753.7487174727
 20
-740.3242517713
 10
746.8645783546
 20
-745.0858462024
 10
739.9603972687
 20
-749.5731444632
 10
733.045073378
 20
-753.7803626383
 10
726.127520208
 20
-757.7020778226
 10
719.2166541575
 20
-761.3332351106
 10
712.3213830062
 20
-764.6691541123
 10
705.4505944325
 20
-767.7055349858
 10
698.6131445579
 20
-770.4384639797
 10
691.8178465321
 20
-772.8644184779
 10
685.0734591729
 20
-774.9802715396
 10
678.3886756766
 20
-776.7832959303
 10
671.7721124132
 20
-778.2711676369
 10
665.2322978196
 20
-779.4419688631
 10
658.7776614078
 20
-780.2941905014
 10
652.4165228988
 20
-780.8267340785
 10
646.1570814994
 20
-781.0389131708
 10
640.0074053336
 20
-780.9304542896
 10
633.9754210431
 20
-780.5014972333
 10
628.0689035704
 20
-779.7525949071
 10
622.2954661374
 20
-778.6847126108
 10
616.6625504317
 20
-777.2992267942
 10
611.1774170154
 20
-775.5979232829
 10
605.8471359662
 20
-773.5829949768
 10
600.6785777641
 20
-771.2570390231
 10
595.6784044365
 20
-768.6230534691
 10
590.8530609701
 20
-765.6844333976
 10
586.2087670046
 20
-762.4449665509
 10
581.7515088153
 20
-758.9088284486
 10
577.4870315972
 20
-755.0805770055
 10
573.4208320598
 20
-750.9651466568
 10
569.558151342
 20
-746.5678419974
 10
565.9039682567
 20
-741.8943309452
 10
562.462992873
 20
-736.950637435
 10
559.2396604454
 20
-731.7431336538
 10
556.2381256972
 20
-726.2785318279
 10
553.4622574645
 20
-720.5638755705
 10
550.9156337104
 20
-714.6065308034
 10
548.6015369123
 20
-708.4141762623
 10
546.5229498317
 20
-701.9947935993
 10
544.682551669
 20
-695.3566570952
 10
543.0827146105
 20
-688.5083229939
 10
541.7255007703
 20
-681.4586184745
 10
541.4828413719
 20
-680.0223349377
  0
LWPOLYLINE
  5
BB
330
1F
100
AcDbEntity
  8
0
  6
Continuous
 62
     7
370
    25
100
AcDbPolyline
 90
       88
 70
   128
 43
0.0
 10
834.2893126798
 20
-324.8425220351
 10
836.3071483667
 20
-325.5804550916
 10
841.1631481845
 20
-327.6187086795
 10
845.8518682233
 20
-329.9686282486
 10
850.3661683358
 20
-332.6266352592
 10
854.6991739877
 20
-335.5886820049
 10
858.8442867261
 20
-338.8502577772
 10
862.795194228
 20
-342.4063957342
 10
866.545879913
 20
-346.2516804643
 10
870.0906321055
 20
-350.3802562332
 10
873.4240527326
 20
-354.785835901
 10
876.5410655445
 20
-359.4617104965
 10
879.4369238449
 20
-364.4007594341
 10
882.1072177194
 20
-369.595461357
 10
884.5478807506
 20
-375.0379055909
 10
886.7551962116
 20
-380.7198041911
 10
888.7258027248
 20
-386.6325045631
 10
890.4566993817
 20
-392.7670026398
 10
891.9452503122
 20
-399.1139565923
 10
893.1891886987
 20
-405.6637010567
 10
894.1866202282
 20
-412.4062618527
 10
894.9360259772
 20
-419.3313711723
 10
895.4362647241
 20
-426.4284832163
 10
895.6865746879
 20
-433.6867902537
 10
895.6865746879
 20
-441.0952390803
 10
895.4362647241
 20
-448.6425478505
 10
894.9360259771
 20
-456.3172232579
 10
894.1866202282
 20
-464.1075780379
 10
893.1891886987
 20
-472.0017487652
 10
891.9452503122
 20
-479.9877139199
 10
890.4566993817
 20
-488.0533121943
 10
888.7258027248
 20
-496.1862610128
 10
886.7551962116
 20
-504.3741752358
 10
884.5478807506
 20
-512.6045860205
 10
882.1072177194
 20
-520.864959809
 10
879.4369238449
 20
-529.1427174146
 10
876.5410655445
 20
-537.4252531778
 10
873.4240527326
 20
-545.6999541628
 10
870.0906321055
 20
-553.9542193651
 10
866.545879913
 20
-562.1754789002
 10
862.795194228
 20
-570.351213146
 10
858.8442867261
 20
-578.4689718078
 10
854.6991739877
 20
-586.5163928782
 10
850.3661683358
 20
-594.4812214625
 10
845.8518682233
 20
-602.3513284403
 10
841.1631481845
 20
-610.114728937
 10
836.3071483667
 20
-617.7596005743
 10
831.2912636567
 20
-625.2743014736
 10
826.1231324194
 20
-632.6473879851
 10
820.8106248662
 20
-639.8676321141
 10
815.3618310698
 20
-646.92403862
 10
809.7850486445
 20
-653.8058617594
 10
804.0887701099
 20
-660.502621651
 10
798.2816699586
 20
-667.004120234
 10
792.3725914463
 20
-673.3004567986
 10
786.3705331248
 20
-679.3820430628
 10
780.2846351389
 20
-685.2396177738
 10
774.1241653074
 20
-690.8642608116
 10
767.8985050097
 20
-696.2474067727
 10
761.6171348994
 20
-701.3808580136
 10
755.2896204671
 20
-706.2567971349
 10
748.9255974736
 20
-710.8677988856
 10
742.534757276
 20
-715.2068414707
 10
736.12683207
 20
-719.267317244
 10
729.7115800685
 20
-723.0430427707
 10
723.2987706421
 20
-726.5282682436
 10
716.8981694418
 20
-729.7176862392
 10
710.5195235275
 20
-732.6064398001
 10
704.1725465247
 20
-735.190129831
 10
697.8669038324
 20
-737.4648217983
 10
691.6121979044
 20
-739.4270517212
 10
685.417953626
 20
-741.0738314473
 10
679.2936038095
 20
-742.4026532026
 10
673.2484748295
 20
-743.4114934109
 10
667.2917724203
 20
-744.0988157749
 10
661.432567657
 20
-744.463573616
 10
655.6797831421
 20
-744.5052114682
 10
650.0421794174
 20
-744.223665924
 10
644.5283416234
 20
-743.6193657307
 10
639.1466664257
 20
-742.6932311378
 10
633.9053492278
 20
-741.4466724956
 10
628.8123716912
 20
-739.8815881073
 10
623.8754895807
 20
-738.0003613382
 10
619.1022209534
 20
-735.8058569864
 10
614.4998347099
 20
-733.30141692
 10
610.0753395255
 20
-730.4908549881
 10
605.8354731764
 20
-727.378451213
 10
603.1740675903
 20
-725.1892473352
  0
LWPOLYLINE
  5
BC
330
1F
100
AcDbEntity
  8
0
  6
Continuous
 62
     7
370
    25
100
AcDbPolyline
 90
      160
 70
   128
 43
0.0
 10
509.2840164517
 20
-587.796141503
 10
509.408223573
 20
-580.4662183658
 10
509.7806510022
 20
-573.0043335437
 10
510.4007172379
 20
-565.4221378841
 10
511.2674541206
 20
-557.7314700855
 10
512.3795083432
 20
-549.9443382127
 10
513.7351435653
 20
-542.0729009478
 10
515.3322431234
 20
-534.1294486055
 10
517.168313336
 20
-526.1263839439
 10
519.2404873975
 20
-518.0762027983
 10
521.545529854
 20
-509.9914745711
 10
524.0798416555
 20
-501.8848226055
 10
526.8394657748
 20
-493.7689044764
 10
529.8200933865
 20
-485.6563922265
 10
533.0170705943
 20
-477.5599525806
 10
536.425405698
 20
-469.4922271682
 10
540.0397769868
 20
-461.4658127847
 10
543.8545410489
 20
-453.4932417236
 10
547.8637415833
 20
-445.5869622079
 10
552.061118699
 20
-437.7593189548
 10
556.4401186901
 20
-430.0225338999
 10
560.9939042679
 20
-422.3886871147
 10
565.7153652367
 20
-414.8696979448
 10
570.5971295957
 20
-407.4773063991
 10
575.6315750495
 20
-400.2230548196
 10
580.8108409089
 20
-393.118269859
 10
586.1268403652
 20
-386.1740447956
 10
591.5712731164
 20
-379.4012222124
 10
597.1356383268
 20
-372.810377068
 10
602.8112479009
 20
-366.4118001847
 10
608.589240048
 20
-360.2154821808
 10
614.4605931192
 20
-354.2310978712
 10
620.4161396937
 20
-348.4679911617
 10
626.4465808924
 20
-342.9351604592
 10
632.5425008974
 20
-337.6412446222
 10
638.6943816531
 20
-332.5945094717
 10
644.8926177281
 20
-327.8028348857
 10
651.1275313124
 20
-323.2737024952
 10
657.3893873286
 20
-319.0141840027
 10
663.6684086319
 20
-315.0309301408
 10
669.9547912759
 20
-311.3301602876
 10
676.2387198203
 20
-307.9176527558
 10
682.5103826567
 20
-304.7987357709
 10
688.759987328
 20
-301.9782791515
 10
694.9777758184
 20
-299.4606867058
 10
701.1540397892
 20
-297.2498893555
 10
707.2791357376
 20
-295.3493389984
 10
713.3435000531
 20
-293.7620031181
 10
719.3376639508
 20
-292.4903601512
 10
725.2522682554
 20
-291.5363956173
 10
731.0780780143
 20
-290.9015990187
 10
736.8059969172
 20
-290.5869615149
 10
742.4270814986
 20
-290.5929743751
 10
747.9325551022
 20
-290.9196282109
 10
753.3138215845
 20
-291.5664129912
 10
758.5624787368
 20
-292.5323188382
 10
763.6703314039
 20
-293.8158376046
 10
768.6294042802
 20
-295.4149652283
 10
773.4319543621
 20
-297.3272048612
 10
778.0704830377
 20
-299.5495707683
 10
782.5377477952
 20
-302.0785929889
 10
786.8267735309
 20
-304.9103227551
 10
790.9308634403
 20
-308.0403386569
 10
794.8436094741
 20
-311.4637535462
 10
798.558902344
 20
-315.1752221669
 10
802.070941061
 20
-319.1689495014
 10
805.3742419938
 20
-323.4386998184
 10
808.4636474299
 20
-327.9778064099
 10
811.3343336295
 20
-332.7791819995
 10
813.981818357
 20
-337.8353298094
 10
816.4019678791
 20
-343.1383552648
 10
818.5910034197
 20
-348.6799783211
 10
820.5455070597
 20
-354.4515463917
 10
822.2624270736
 20
-360.4440478582
 10
823.7390826946
 20
-366.6481261408
 10
824.9731683002
 20
-373.0540943079
 10
825.9627570124
 20
-379.6519502005
 10
826.7063037058
 20
-386.4313920499
 10
827.2026474204
 20
-393.3818345624
 10
827.4510131745
 20
-400.4924254471
 10
827.4510131745
 20
-407.7520623604
 10
827.2026474204
 20
-415.149410241
 10
826.7063037058
 20
-422.6729190084
 10
825.9627570124
 20
-430.3108415967
 10
824.9731683002
 20
-438.0512522964
 10
823.7390826946
 20
-445.8820653751
 10
822.2624270736
 20
-453.7910539477
 10
820.5455070597
 20
-461.7658690674
 10
818.5910034197
 20
-469.7940590072
 10
816.4019678791
 20
-477.8630887013
 10
813.981818357
 20
-485.9603593178
 10
811.3343336295
 20
-494.0732279299
 10
808.4636474299
 20
-502.1890272561
 10
805.3742419938
 20
-510.2950854394
 10
802.070941061
 20
-518.3787458321
 10
798.558902344
 20
-526.427386758
 10
794.8436094741
 20
-534.4284412198
 10
790.9308634403
 20
-542.3694165208
 10
786.8267735309
 20
-550.2379137706
 10
782.5377477952
 20
-558.0216472448
 10
778.0704830377
 20
-565.7084635677
 10
773.4319543621
 20
-573.286360688
 10
768.6294042802
 20
-580.7435066189
 10
763.6703314039
 20
-588.0682579122
 10
758.5624787368
 20
-595.2491778383
 10
753.3138215845
 20
-602.2750542432
 10
747.9325551022
 20
-609.1349170549
 10
742.4270814986
 20
-615.8180554118
 10
736.8059969172
 20
-622.3140343869
 10
731.0780780143
 20
-628.6127112801
 10
725.2522682554
 20
-634.704251455
 10
719.3376639508
 20
-640.5791436948
 10
713.3435000531
 20
-646.2282150527
 10
707.2791357376
 20
-651.6426451743
 10
701.1540397892
 20
-656.8139800698
 10
694.9777758184
 20
-661.7341453135
 10
688.759987328
 20
-666.3954586515
 10
682.5103826567
 20
-670.7906419964
 10
676.2387198203
 20
-674.912832791
 10
669.9547912759
 20
-678.7555947238
 10
663.6684086319
 20
-682.3129277783
 10
657.3893873286
 20
-685.5792776011
 10
651.1275313124
 20
-688.5495441746
 10
644.8926177281
 20
-691.2190897804
 10
638.6943816531
 20
-693.5837462397
 10
632.5425008974
 20
-695.6398214222
 10
626.4465808924
 20
-697.3841050106
 10
620.4161396937
 20
-698.8138735132
 10
614.4605931192
 20
-699.9268945161
 10
608.589240048
 20
-700.7214301691
 10
602.8112479009
 20
-701.1962398992
 10
597.1356383268
 20
-701.3505823474
 10
591.5712731164
 20
-701.1842165261
 10
586.1268403652
 20
-700.697402196
 10
580.8108409089
 20
-699.8908994597
 10
575.6315750495
 20
-698.7659675756
 10
570.5971295957
 20
-697.3243629913
 10
565.7153652367
 20
-695.5683366012
 10
560.9939042679
 20
-693.500630232
 10
556.4401186901
 20
-691.1244723619
 10
552.061118699
 20
-688.4435730791
 10
547.8637415833
 20
-685.4621182899
 10
543.8545410489
 20
-682.1847631818
 10
540.0397769868
 20
-678.6166249558
 10
536.425405698
 20
-674.7632748362
 10
533.0170705943
 20
-670.6307293718
 10
529.8200933865
 20
-666.2254410418
 10
526.8394657748
 20
-661.5542881809
 10
524.0798416555
 20
-656.6245642399
 10
521.545529854
 20
-651.4439663975
 10
519.2404873975
 20
-646.0205835422
 10
517.168313336
 20
-640.3628836426
 10
515.3322431234
 20
-634.4797005255
 10
513.7351435653
 20
-628.380220083
 10
512.3795083432
 20
-622.0739659296
 10
511.2674541206
 20
-615.5707845326
 10
510.4007172379
 20
-608.8808298379
 10
509.7806510022
 20
-602.0145474156
 10
509.408223573
 20
-594.9826581505
 10
509.2840164517
 20
-587.796141503
  0
LWPOLYLINE
  5
BD
330
1F
100
AcDbEntity
  8
0
  6
Continuous
 62
     7
370
    25
100
AcDbPolyline
 90
      150
 70
   128
 43
0.0
 10
528.1637675094
 20
-576.8970932101
 10
528.2884198861
 20
-569.9991453966
 10
528.6621553889
 20
-562.9695413119
 10
529.2843095295
 20
-555.8207793355
 10
530.1537761408
 20
-548.5655697053
 10
531.2690093428
 20
-541.2168119193
 10
532.6280262915
 20
-533.7875718007
 10
534.2284107044
 20
-526.2910582672
 10
536.0673171565
 20
-518.7405998463
 10
538.1414761391
 20
-511.1496209777
 10
540.4471998733
 20
-503.5316181446
 10
542.9803888664
 20
-495.9001358782
 10
545.7365392009
 20
-488.2687426754
 10
548.7107505419
 20
-480.6510068748
 10
551.8977348504
 20
-473.0604725327
 10
555.2918257845
 20
-465.5106353421
 10
558.8869887744
 20
-458.0149186381
 10
562.6768317515
 20
-450.5866495314
 10
566.6546165132
 20
-443.2390352134
 10
570.8132707034
 20
-435.9851394743
 10
575.1454003868
 20
-428.8378594759
 10
579.6433031949
 20
-421.8099028212
 10
584.2989820205
 20
-414.9137649607
 10
589.1041592367
 20
-408.1617069759
 10
594.0502914138
 20
-401.5657337794
 10
599.1285845091
 20
-395.1375727709
 10
604.3300095029
 20
-388.8886529861
 10
609.6453184515
 20
-382.8300847764
 10
615.0650609293
 20
-376.9726400548
 10
620.5796008322
 20
-371.3267331444
 10
626.1791335093
 20
-365.9024022616
 10
631.853703196
 20
-360.7092916687
 10
637.5932207144
 20
-355.756634527
 10
643.3874814118
 20
-351.05323648
 10
649.2261833042
 20
-346.6074599978
 10
655.0989453927
 20
-342.4272095088
 10
660.9953261205
 20
-338.5199173459
 10
666.9048419379
 20
-334.8925305317
 10
672.8169859415
 20
-331.5514984279
 10
678.721246555
 20
-328.5027612675
 10
684.6071262184
 20
-325.7517395939
 10
690.4641600525
 20
-323.3033246233
 10
696.281934465
 20
-321.1618695481
 10
702.0501056651
 20
-319.3311817973
 10
707.7584180551
 20
-317.814516267
 10
713.3967224637
 20
-316.614569533
 10
718.9549941915
 20
-315.733475057
 10
724.4233508343
 20
-315.1727993927
 10
729.7920698534
 20
-314.9335394009
 10
735.0516058624
 20
-315.0161204773
 10
740.1926075982
 20
-315.4203957957
 10
745.2059345472
 20
-316.1456465693
 10
750.0826731972
 20
-317.1905833287
 10
754.8141528848
 20
-318.5533482146
 10
759.3919612118
 20
-320.2315182805
 10
763.8079590019
 20
-322.2221098015
 10
768.0542947724
 20
-324.5215835784
 10
772.1234186931
 20
-327.1258512308
 10
776.0080960103
 20
-330.0302824658
 10
779.7014199094
 20
-333.2297133108
 10
783.1968237953
 20
-336.7184552943
 10
786.4880929674
 20
-340.4903055604
 10
789.5693756694
 20
-344.5385578971
 10
792.4351934929
 20
-348.8560146595
 10
795.0804511184
 20
-353.4349995668
 10
797.5004453746
 20
-358.2673713512
 10
799.6908735998
 20
-363.3445382319
 10
801.6478412926
 20
-368.6574731914
 10
803.3678690359
 20
-374.1967300253
 10
804.8478986831
 20
-379.9524601371
 10
806.0852987955
 20
-385.9144300487
 10
807.0778693209
 20
-392.0720395952
 10
807.8238455051
 20
-398.4143407715
 10
808.3219010297
 20
-404.9300571975
 10
808.5711503701
 20
-411.6076041673
 10
808.5711503701
 20
-418.4351092459
 10
808.3219010297
 20
-425.4004333786
 10
807.8238455051
 20
-432.4911924732
 10
807.0778693209
 20
-439.6947794188
 10
806.0852987955
 20
-446.9983865006
 10
804.8478986831
 20
-454.3890281719
 10
803.3678690359
 20
-461.8535641414
 10
801.6478412926
 20
-469.3787227367
 10
799.6908735998
 20
-476.9511245002
 10
797.5004453746
 20
-484.5573059781
 10
795.0804511184
 20
-492.1837436572
 10
792.4351934929
 20
-499.8168780097
 10
789.5693756694
 20
-507.4431376012
 10
786.4880929674
 20
-515.0489632205
 10
783.1968237953
 20
-522.6208319871
 10
779.7014199094
 20
-530.1452813948
 10
776.0080960103
 20
-537.6089332471
 10
772.1234186931
 20
-544.9985174434
 10
768.0542947724
 20
-552.3008955726
 10
763.8079590019
 20
-559.5030842729
 10
759.3919612118
 20
-566.5922783156
 10
754.8141528848
 20
-573.5558733724
 10
750.0826731972
 20
-580.3814884255
 10
745.2059345472
 20
-587.0569877803
 10
740.1926075982
 20
-593.5705026426
 10
735.0516058624
 20
-599.9104522207
 10
729.7920698534
 20
-606.0655643156
 10
724.4233508343
 20
-612.0248953627
 10
718.9549941915
 20
-617.7778498887
 10
713.3967224637
 20
-623.3141993505
 10
707.7584180551
 20
-628.6241003207
 10
702.0501056651
 20
-633.6981119893
 10
696.281934465
 20
-638.5272129486
 10
690.4641600525
 20
-643.1028172334
 10
684.6071262184
 20
-647.4167895862
 10
678.721246555
 20
-651.4614599216
 10
672.8169859415
 20
-655.2296369634
 10
666.9048419379
 20
-658.7146210303
 10
660.9953261205
 20
-661.9102159478
 10
655.0989453927
 20
-664.8107400647
 10
649.2261833042
 20
-667.411036355
 10
643.3874814118
 20
-669.7064815868
 10
637.5932207144
 20
-671.6929945423
 10
631.853703196
 20
-673.3670432739
 10
626.1791335093
 20
-674.7256513841
 10
620.5796008322
 20
-675.7664033172
 10
615.0650609293
 20
-676.4874486542
 10
609.6453184515
 20
-676.8875054029
 10
604.3300095029
 20
-676.9658622769
 10
599.1285845091
 20
-676.7223799607
 10
594.0502914138
 20
-676.1574913568
 10
589.1041592367
 20
-675.2722008167
 10
584.2989820205
 20
-674.0680823545
 10
579.6433031949
 20
-672.5472768489
 10
575.1454003868
 20
-670.7124882367
 10
570.8132707034
 20
-668.5669787051
 10
566.6546165132
 20
-666.1145628916
 10
562.6768317514
 20
-663.3596011022
 10
558.8869887744
 20
-660.3069915582
 10
555.2918257845
 20
-656.9621616882
 10
551.8977348504
 20
-653.3310584776
 10
548.7107505419
 20
-649.4201378953
 10
545.7365392009
 20
-645.2363534154
 10
542.9803888664
 20
-640.7871436541
 10
540.4471998733
 20
-636.0804191439
 10
538.1414761391
 20
-631.1245482692
 10
536.0673171565
 20
-625.9283423877
 10
534.2284107044
 20
-620.5010401638
 10
532.6280262915
 20
-614.8522911427
 10
531.2690093428
 20
-608.992138594
 10
530.1537761408
 20
-602.9310016552
 10
529.2843095295
 20
-596.6796568066
 10
528.6621553889
 20
-590.249218711
 10
528.2884198861
 20
-583.6511204529
 10
528.1637675094
 20
-576.8970932101
  0
LWPOLYLINE
  5
BE
330
1F
100
AcDbEntity
  8
0
  6
Continuous
 62
     7
370
    25
100
AcDbPolyline
 90
       82
 70
   128
 43
0.0
 10
809.1581708877
 20
-317.4173971237
 10
810.8220190427
 20
-318.4067552254
 10
815.1110447784
 20
-321.2384849915
 10
819.2151346877
 20
-324.3685008934
 10
823.1278807216
 20
-327.7919157827
 10
826.8431735914
 20
-331.5033844034
 10
830.3552123085
 20
-335.4971117378
 10
833.6585132412
 20
-339.7668620549
 10
836.7479186774
 20
-344.3059686463
 10
839.618604877
 20
-349.107344236
 10
842.2660896045
 20
-354.1634920458
 10
844.6862391266
 20
-359.4665175013
 10
846.8752746672
 20
-365.0081405576
 10
848.8297783071
 20
-370.7797086282
 10
850.546698321
 20
-376.7722100947
 10
852.023353942
 20
-382.9762883773
 10
853.2574395477
 20
-389.3822565443
 10
854.2470282599
 20
-395.980112437
 10
854.9905749532
 20
-402.7595542863
 10
855.4869186679
 20
-409.7099967988
 10
855.735284422
 20
-416.8205876835
 10
855.735284422
 20
-424.0802245968
 10
855.4869186679
 20
-431.4775724775
 10
854.9905749532
 20
-439.0010812448
 10
854.2470282599
 20
-446.6390038331
 10
853.2574395477
 20
-454.3794145328
 10
852.023353942
 20
-462.2102276115
 10
850.546698321
 20
-470.1192161841
 10
848.8297783071
 20
-478.0940313039
 10
846.8752746672
 20
-486.1222212436
 10
844.6862391266
 20
-494.1912509378
 10
842.2660896045
 20
-502.2885215543
 10
839.618604877
 20
-510.4013901663
 10
836.7479186774
 20
-518.5171894926
 10
833.6585132412
 20
-526.6232476759
 10
830.3552123085
 20
-534.7069080685
 10
826.8431735914
 20
-542.7555489944
 10
823.1278807216
 20
-550.7566034563
 10
819.2151346877
 20
-558.6975787572
 10
815.1110447784
 20
-566.566076007
 10
810.8220190427
 20
-574.3498094813
 10
806.3547542852
 20
-582.0366258042
 10
801.7162256095
 20
-589.6145229244
 10
796.9136755276
 20
-597.0716688553
 10
791.9546026513
 20
-604.3964201486
 10
786.8467499843
 20
-611.5773400748
 10
781.598092832
 20
-618.6032164796
 10
776.2168263497
 20
-625.4630792913
 10
770.711352746
 20
-632.1462176483
 10
765.0902681646
 20
-638.6421966234
 10
759.3623492618
 20
-644.9408735165
 10
753.5365395029
 20
-651.0324136914
 10
747.6219351983
 20
-656.9073059313
 10
741.6277713005
 20
-662.5563772892
 10
735.563406985
 20
-667.9708074108
 10
729.4383110367
 20
-673.1421423062
 10
723.2620470658
 20
-678.06230755
 10
717.0442585754
 20
-682.723620888
 10
710.7946539042
 20
-687.1188042328
 10
704.5229910678
 20
-691.2409950275
 10
698.2390625234
 20
-695.0837569603
 10
691.9526798794
 20
-698.6410900147
 10
685.6736585761
 20
-701.9074398375
 10
679.4118025598
 20
-704.8777064111
 10
673.1768889755
 20
-707.5472520168
 10
666.9786529006
 20
-709.9119084761
 10
660.8267721449
 20
-711.9679836587
 10
654.7308521399
 20
-713.7122672471
 10
648.7004109411
 20
-715.1420357496
 10
642.7448643666
 20
-716.2550567525
 10
636.8735112954
 20
-717.0495924056
 10
631.0955191484
 20
-717.5244021357
 10
625.4199095743
 20
-717.6787445838
 10
619.8555443638
 20
-717.5123787626
 10
614.4111116127
 20
-717.0255644324
 10
609.0951121564
 20
-716.2190616962
 10
603.9158462969
 20
-715.0941298121
 10
598.8814008432
 20
-713.6525252278
 10
593.9996364842
 20
-711.8964988376
 10
589.2781755154
 20
-709.8287924685
 10
584.7243899376
 20
-707.4526345983
 10
584.1764560446
 20
-707.139385195
  0
LWPOLYLINE
  5
BF
330
1F
100
AcDbEntity
  8
0
  6
Continuous
 62
     7
370
    25
100
AcDbPolyline
 90
       48
 70
   128
 43
0.0
 10
606.8647522555
 20
-622.3302046331
 10
606.9894046322
 20
-615.4322568196
 10
607.3631401349
 20
-608.4026527349
 10
607.9852942756
 20
-601.2538907585
 10
608.8547608869
 20
-593.9986811283
 10
609.9699940889
 20
-586.6499233423
 10
611.3290110376
 20
-579.2206832236
 10
612.9293954505
 20
-571.7241696901
 10
614.7683019025
 20
-564.1737112693
 10
616.8424608851
 20
-556.5827324006
 10
619.1481846193
 20
-548.9647295676
 10
621.6813736125
 20
-541.3332473011
 10
624.4375239469
 20
-533.7018540983
 10
627.411735288
 20
-526.0841182977
 10
630.5987195965
 20
-518.4935839556
 10
633.9928105306
 20
-510.9437467651
 10
637.5879735205
 20
-503.4480300611
 10
641.3778164975
 20
-496.0197609544
 10
645.3556012592
 20
-488.6721466364
 10
649.5142554495
 20
-481.4182508972
 10
653.8463851329
 20
-474.2709708988
 10
658.3442879409
 20
-467.2430142441
 10
662.9999667666
 20
-460.3468763836
 10
667.8051439828
 20
-453.5948183988
 10
672.7512761598
 20
-446.9988452023
 10
677.8295692552
 20
-440.5706841939
 10
683.030994249
 20
-434.3217644091
 10
688.3463031975
 20
-428.2631961993
 10
693.7660456754
 20
-422.4057514777
 10
699.2805855782
 20
-416.7598445673
 10
704.8801182554
 20
-411.3355136845
 10
710.5546879421
 20
-406.1424030917
 10
716.2942054605
 20
-401.1897459499
 10
722.0884661579
 20
-396.4863479029
 10
727.9271680503
 20
-392.0405714207
 10
733.7999301387
 20
-387.8603209318
 10
739.6963108665
 20
-383.9530287688
 10
745.605826684
 20
-380.3256419547
 10
751.5179706876
 20
-376.9846098508
 10
757.422231301
 20
-373.9358726904
 10
763.3081109645
 20
-371.1848510168
 10
769.1651447986
 20
-368.7364360462
 10
774.982919211
 20
-366.594980971
 10
780.7510904112
 20
-364.7642932202
 10
786.4594028011
 20
-363.2476276899
 10
792.0977072098
 20
-362.047680956
 10
797.6559789376
 20
-361.1665864799
 10
798.7344507208
 20
-361.0314942515
  0
LWPOLYLINE
  5
C0
330
1F
100
AcDbEntity
  8
0
  6
Continuous
 62
     7
370
    25
100
AcDbPolyline
 90
       10
 70
   128
 43
0.0
 10
616.7326184627
 20
-676.3020750173
 10
614.7683019025
 20
-671.3614538107
 10
612.9293954505
 20
-665.9341515867
 10
611.3290110376
 20
-660.2854025656
 10
609.9699940889
 20
-654.425250017
 10
608.8547608869
 20
-648.3641130782
 10
607.9852942756
 20
-642.1127682295
 10
607.3631401349
 20
-635.682330134
 10
606.9894046322
 20
-629.0842318759
 10
606.8647522555
 20
-622.3302046331
  0
LWPOLYLINE
  5
C1
330
1F
100
AcDbEntity
  8
0
  6
Continuous
 62
     7
370
    25
100
AcDbPolyline
 90
       38
 70
   128
 43
0.0
 10
607.0822468314
 20
-631.2196842244
 10
607.3650583949
 20
-626.1455016331
 10
607.9896899688
 20
-618.5996229723
 10
608.8627733157
 20
-610.9449284385
 10
609.9829102714
 20
-603.1936763342
 10
611.3483070377
 20
-595.3582795899
 10
612.9567770549
 20
-587.4512858863
 10
614.8057445035
 20
-579.4853575602
 10
616.8922484289
 20
-571.4732513268
 10
619.2129474834
 20
-563.4277978512
 10
621.764125277
 20
-555.3618812008
 10
624.5416963287
 20
-547.2884182132
 10
627.5412126092
 20
-539.2203378108
 10
630.7578706638
 20
-531.1705602959
 10
634.186519305
 20
-523.1519766609
 10
637.8216678615
 20
-515.1774279436
 10
641.6574949709
 20
-507.259684664
 10
645.6878579023
 20
-499.4114263735
 10
649.9063023934
 20
-491.6452213492
 10
654.3060729859
 20
-483.9735064677
 10
658.8801238443
 20
-476.4085672877
 10
663.6211300392
 20
-468.9625183767
 10
668.5214992768
 20
-461.6472839099
 10
673.5733840583
 20
-454.4745785751
 10
678.7686942461
 20
-447.4558888124
 10
684.0991100199
 20
-440.6024544201
 10
689.5560951998
 20
-433.9252505548
 10
695.1309109167
 20
-427.4349701557
 10
700.8146296064
 20
-421.1420068211
 10
706.5981493063
 20
-415.0564381639
 10
712.4722082317
 20
-409.1880096729
 10
718.4273996073
 20
-403.5461191068
 10
724.4541867318
 20
-398.1398014441
 10
730.5429182494
 20
-392.9777144145
 10
736.6838436062
 20
-388.0681246345
 10
742.8671286645
 20
-383.418894369
 10
749.0828714514
 20
-379.0374689406
 10
754.8681003839
 20
-375.2193390611
  0
ENDSEC
  0
SECTION
  2
OBJECTS
  0
DICTIONARY
  5
C
330
0
100
AcDbDictionary
281
     1
  3
ACAD_GROUP
350
D
  3
ACAD_LAYOUT
350
1A
  3
ACAD_MLINESTYLE
350
17
  3
ACAD_PLOTSETTINGS
350
19
  3
ACAD_PLOTSTYLENAME
350
E
  3
ACAD_SCALELIST
350
47
  0
DICTIONARY
  5
D
102
{ACAD_REACTORS
330
C
102
}
330
C
100
AcDbDictionary
281
     1
  0
DICTIONARY
  5
1A
102
{ACAD_REACTORS
330
C
102
}
330
C
100
AcDbDictionary
281
     1
  3
Layout1
350
1E
  3
Layout2
350
26
  3
Model
350
22
  0
DICTIONARY
  5
17
102
{ACAD_REACTORS
330
C
102
}
330
C
100
AcDbDictionary
281
     1
  3
Standard
350
18
  0
DICTIONARY
  5
19
102
{ACAD_REACTORS
330
C
102
}
330
C
100
AcDbDictionary
281
     1
  0
ACDBDICTIONARYWDFLT
  5
E
102
{ACAD_REACTORS
330
C
102
}
330
C
100
AcDbDictionary
281
     1
  3
Normal
350
F
100
AcDbDictionaryWithDefault
340
F
  0
DICTIONARY
  5
47
102
{ACAD_REACTORS
330
C
102
}
330
C
100
AcDbDictionary
281
     1
  3
A0
350
48
  3
A1
350
49
  3
A2
350
4A
  3
A3
350
4B
  3
A4
350
4C
  3
A5
350
4D
  3
A6
350
4E
  3
A7
350
4F
  3
A8
350
50
  3
A9
350
51
  3
B0
350
52
  3
B1
350
53
  3
B2
350
54
  3
B3
350
55
  3
B4
350
56
  3
B5
350
57
  3
B6
350
58
  3
B7
350
59
  3
B8
350
5A
  3
B9
350
5B
  3
C0
350
5C
  3
C1
350
5D
  3
C2
350
5E
  3
C3
350
5F
  3
C4
350
60
  3
C5
350
61
  3
C6
350
62
  3
C7
350
63
  3
C8
350
64
  3
C9
350
65
  3
D0
350
66
  3
D1
350
67
  3
D2
350
68
  0
LAYOUT
  5
1E
102
{ACAD_REACTORS
330
1A
102
}
330
1A
100
AcDbPlotSettings
  1

  2
none_device
  4

  6

 40
0.0
 41
0.0
 42
0.0
 43
0.0
 44
0.0
 45
0.0
 46
0.0
 47
0.0
 48
0.0
 49
0.0
140
0.0
141
0.0
142
1.0
143
1.0
 70
   688
 72
     1
 73
     0
 74
     5
  7

 75
    16
147
1.0
148
0.0
149
0.0
100
AcDbLayout
  1
Layout1
 70
     1
 71
     1
 10
0.0
 20
0.0
 11
420.0
 21
297.0
 12
0.0
 22
0.0
 32
0.0
 14
1.0000000000E+20
 24
1.0000000000E+20
 34
1.0000000000E+20
 15
-1.0000000000E+20
 25
-1.0000000000E+20
 35
-1.0000000000E+20
146
0.0
 13
0.0
 23
0.0
 33
0.0
 16
1.0
 26
0.0
 36
0.0
 17
0.0
 27
1.0
 37
0.0
 76
     0
330
1B
  0
LAYOUT
  5
26
102
{ACAD_REACTORS
330
1A
102
}
330
1A
100
AcDbPlotSettings
  1

  2
none_device
  4

  6

 40
0.0
 41
0.0
 42
0.0
 43
0.0
 44
0.0
 45
0.0
 46
0.0
 47
0.0
 48
0.0
 49
0.0
140
0.0
141
0.0
142
1.0
143
1.0
 70
   688
 72
     1
 73
     0
 74
     5
  7

 75
    16
147
1.0
148
0.0
149
0.0
100
AcDbLayout
  1
Layout2
 70
     1
 71
     2
 10
0.0
 20
0.0
 11
0.0
 21
0.0
 12
0.0
 22
0.0
 32
0.0
 14
0.0
 24
0.0
 34
0.0
 15
0.0
 25
0.0
 35
0.0
146
0.0
 13
0.0
 23
0.0
 33
0.0
 16
1.0
 26
0.0
 36
0.0
 17
0.0
 27
1.0
 37
0.0
 76
     0
330
23
  0
LAYOUT
  5
22
102
{ACAD_REACTORS
330
1A
102
}
330
1A
100
AcDbPlotSettings
  1

  2
none_device
  4
Letter_(8.50_x_11.00_Inches)
  6

 40
6.35
 41
6.35
 42
6.35000508
 43
6.35000508
 44
215.9
 45
279.4
 46
0.0
 47
0.0
 48
0.0
 49
0.0
140
0.0
141
0.0
142
1.0
143
1.0
 70
  1712
 72
     1
 73
     0
 74
     0
  7

 75
     0
147
1.0
148
0.0
149
0.0
100
AcDbLayout
  1
Model
 70
     1
 71
     0
 10
0.0
 20
0.0
 11
279.4
 21
215.9
 12
0.0
 22
0.0
 32
0.0
 14
0.0
 24
0.0
 34
0.0
 15
279.4
 25
215.9
 35
0.0
146
0.0
 13
0.0
 23
0.0
 33
0.0
 16
1.0
 26
0.0
 36
0.0
 17
0.0
 27
1.0
 37
0.0
 76
     0
330
1F
331
29
  0
MLINESTYLE
  5
18
102
{ACAD_REACTORS
330
17
102
}
330
17
100
AcDbMlineStyle
  2
Standard
 70
     0
  3

 62
   256
 51
90.0
 52
90.0
 71
     2
 49
0.5
 62
   256
  6
BYLAYER
 49
-0.5
 62
   256
  6
BYLAYER
  0
ACDBPLACEHOLDER
  5
F
102
{ACAD_REACTORS
330
E
102
}
330
E
  0
SCALE
  5
48
102
{ACAD_REACTORS
330
47
102
}
330
47
100
AcDbScale
 70
     0
300
1:1
140
1.0
141
1.0
290
     1
  0
SCALE
  5
49
102
{ACAD_REACTORS
330
47
102
}
330
47
100
AcDbScale
 70
     0
300
1:2
140
1.0
141
2.0
290
     0
  0
SCALE
  5
4A
102
{ACAD_REACTORS
330
47
102
}
330
47
100
AcDbScale
 70
     0
300
1:4
140
1.0
141
4.0
290
     0
  0
SCALE
  5
4B
102
{ACAD_REACTORS
330
47
102
}
330
47
100
AcDbScale
 70
     0
300
1:5
140
1.0
141
5.0
290
     0
  0
SCALE
  5
4C
102
{ACAD_REACTORS
330
47
102
}
330
47
100
AcDbScale
 70
     0
300
1:8
140
1.0
141
8.0
290
     0
  0
SCALE
  5
4D
102
{ACAD_REACTORS
330
47
102
}
330
47
100
AcDbScale
 70
     0
300
1:10
140
1.0
141
10.0
290
     0
  0
SCALE
  5
4E
102
{ACAD_REACTORS
330
47
102
}
330
47
100
AcDbScale
 70
     0
300
1:16
140
1.0
141
16.0
290
     0
  0
SCALE
  5
4F
102
{ACAD_REACTORS
330
47
102
}
330
47
100
AcDbScale
 70
     0
300
1:20
140
1.0
141
20.0
290
     0
  0
SCALE
  5
50
102
{ACAD_REACTORS
330
47
102
}
330
47
100
AcDbScale
 70
     0
300
1:30
140
1.0
141
30.0
290
     0
  0
SCALE
  5
51
102
{ACAD_REACTORS
330
47
102
}
330
47
100
AcDbScale
 70
     0
300
1:40
140
1.0
141
40.0
290
     0
  0
SCALE
  5
52
102
{ACAD_REACTORS
330
47
102
}
330
47
100
AcDbScale
 70
     0
300
1:50
140
1.0
141
50.0
290
     0
  0
SCALE
  5
53
102
{ACAD_REACTORS
330
47
102
}
330
47
100
AcDbScale
 70
     0
300
1:100
140
1.0
141
100.0
290
     0
  0
SCALE
  5
54
102
{ACAD_REACTORS
330
47
102
}
330
47
100
AcDbScale
 70
     0
300
2:1
140
2.0
141
1.0
290
     0
  0
SCALE
  5
55
102
{ACAD_REACTORS
330
47
102
}
330
47
100
AcDbScale
 70
     0
300
4:1
140
4.0
141
1.0
290
     0
  0
SCALE
  5
56
102
{ACAD_REACTORS
330
47
102
}
330
47
100
AcDbScale
 70
     0
300
8:1
140
8.0
141
1.0
290
     0
  0
SCALE
  5
57
102
{ACAD_REACTORS
330
47
102
}
330
47
100
AcDbScale
 70
     0
300
10:1
140
10.0
141
1.0
290
     0
  0
SCALE
  5
58
102
{ACAD_REACTORS
330
47
102
}
330
47
100
AcDbScale
 70
     0
300
100:1
140
100.0
141
1.0
290
     0
  0
SCALE
  5
59
102
{ACAD_REACTORS
330
47
102
}
330
47
100
AcDbScale
 70
     0
300
1/128" = 1'-0"
140
0.0078125
141
12.0
290
     0
  0
SCALE
  5
5A
102
{ACAD_REACTORS
330
47
102
}
330
47
100
AcDbScale
 70
     0
300
1/64" = 1'-0"
140
0.015625
141
12.0
290
     0
  0
SCALE
  5
5B
102
{ACAD_REACTORS
330
47
102
}
330
47
100
AcDbScale
 70
     0
300
1/32" = 1'-0"
140
0.03125
141
12.0
290
     0
  0
SCALE
  5
5C
102
{ACAD_REACTORS
330
47
102
}
330
47
100
AcDbScale
 70
     0
300
1/16" = 1'-0"
140
0.0625
141
12.0
290
     0
  0
SCALE
  5
5D
102
{ACAD_REACTORS
330
47
102
}
330
47
100
AcDbScale
 70
     0
300
3/32" = 1'-0"
140
0.09375
141
12.0
290
     0
  0
SCALE
  5
5E
102
{ACAD_REACTORS
330
47
102
}
330
47
100
AcDbScale
 70
     0
300
1/8" = 1'-0"
140
0.125
141
12.0
290
     0
  0
SCALE
  5
5F
102
{ACAD_REACTORS
330
47
102
}
330
47
100
AcDbScale
 70
     0
300
3/16" = 1'-0"
140
0.1875
141
12.0
290
     0
  0
SCALE
  5
60
102
{ACAD_REACTORS
330
47
102
}
330
47
100
AcDbScale
 70
     0
300
1/4" = 1'-0"
140
0.25
141
12.0
290
     0
  0
SCALE
  5
61
102
{ACAD_REACTORS
330
47
102
}
330
47
100
AcDbScale
 70
     0
300
3/8" = 1'-0"
140
0.375
141
12.0
290
     0
  0
SCALE
  5
62
102
{ACAD_REACTORS
330
47
102
}
330
47
100
AcDbScale
 70
     0
300
1/2" = 1'-0"
140
0.5
141
12.0
290
     0
  0
SCALE
  5
63
102
{ACAD_REACTORS
330
47
102
}
330
47
100
AcDbScale
 70
     0
300
3/4" = 1'-0"
140
0.75
141
12.0
290
     0
  0
SCALE
  5
64
102
{ACAD_REACTORS
330
47
102
}
330
47
100
AcDbScale
 70
     0
300
1" = 1'-0"
140
1.0
141
12.0
290
     0
  0
SCALE
  5
65
102
{ACAD_REACTORS
330
47
102
}
330
47
100
AcDbScale
 70
     0
300
1-1/2" = 1'-0"
140
1.5
141
12.0
290
     0
  0
SCALE
  5
66
102
{ACAD_REACTORS
330
47
102
}
330
47
100
AcDbScale
 70
     0
300
3" = 1'-0"
140
3.0
141
12.0
290
     0
  0
SCALE
  5
67
102
{ACAD_REACTORS
330
47
102
}
330
47
100
AcDbScale
 70
     0
300
6" = 1'-0"
140
6.0
141
12.0
290
     0
  0
SCALE
  5
68
102
{ACAD_REACTORS
330
47
102
}
330
47
100
AcDbScale
 70
     0
300
1'-0" = 1'-0"
140
12.0
141
12.0
290
     0
  0
ENDSEC
  0
EOF
